  0
SECTION
  2
HEADER
  9
$ACADVER
  1
AC1015
  9
$ACADMAINTVER
 70
     6
  9
$DWGCODEPAGE
  3
ANSI_1254
  9
$INSBASE
 10
0.0
 20
0.0
 30
0.0
  9
$EXTMIN
 10
0.0
 20
0.0
 30
0.0
  9
$EXTMAX
 10
279.4
 20
215.9
 30
0.0
  9
$LIMMIN
 10
0.0
 20
0.0
  9
$LIMMAX
 10
279.4
 20
215.9
  9
$ORTHOMODE
 70
     0
  9
$REGENMODE
 70
     1
  9
$FILLMODE
 70
     1
  9
$QTEXTMODE
 70
     0
  9
$MIRRTEXT
 70
     1
  9
$LTSCALE
 40
1.0
  9
$ATTMODE
 70
     1
  9
$TEXTSIZE
 40
3.5
  9
$TRACEWID
 40
1.0
  9
$TEXTSTYLE
  7
Standard
  9
$CLAYER
  8
0
  9
$CELTYPE
  6
ByLayer
  9
$CECOLOR
 62
   256
  9
$CELTSCALE
 40
1.0
  9
$DISPSILH
 70
     0
  9
$DIMSCALE
 40
1.0
  9
$DIMASZ
 40
3.5
  9
$DIMEXO
 40
1.0
  9
$DIMDLI
 40
3.75
  9
$DIMRND
 40
0.0
  9
$DIMDLE
 40
0.0
  9
$DIMEXE
 40
1.0
  9
$DIMTP
 40
0.0
  9
$DIMTM
 40
0.0
  9
$DIMTXT
 40
3.5
  9
$DIMCEN
 40
2.5
  9
$DIMTSZ
 40
0.0
  9
$DIMTOL
 70
     0
  9
$DIMLIM
 70
     0
  9
$DIMTIH
 70
     1
  9
$DIMTOH
 70
     1
  9
$DIMSE1
 70
     0
  9
$DIMSE2
 70
     0
  9
$DIMTAD
 70
     1
  9
$DIMZIN
 70
     0
  9
$DIMBLK
  1

  9
$DIMASO
 70
     1
  9
$DIMSHO
 70
     1
  9
$DIMPOST
  1

  9
$DIMAPOST
  1

  9
$DIMALT
 70
     0
  9
$DIMALTD
 70
     3
  9
$DIMALTF
 40
0.0393700787
  9
$DIMLFAC
 40
1.0
  9
$DIMTOFL
 70
     1
  9
$DIMTVP
 40
0.0
  9
$DIMTIX
 70
     0
  9
$DIMSOXD
 70
     0
  9
$DIMSAH
 70
     0
  9
$DIMBLK1
  1

  9
$DIMBLK2
  1

  9
$DIMSTYLE
  2
ISO-25
  9
$DIMCLRD
 70
     0
  9
$DIMCLRE
 70
     0
  9
$DIMCLRT
 70
     0
  9
$DIMTFAC
 40
1.0
  9
$DIMGAP
 40
1.524
  9
$DIMJUST
 70
     0
  9
$DIMSD1
 70
     0
  9
$DIMSD2
 70
     0
  9
$DIMTOLJ
 70
     0
  9
$DIMTZIN
 70
     0
  9
$DIMALTZ
 70
     0
  9
$DIMALTTZ
 70
     0
  9
$DIMUPT
 70
     0
  9
$DIMDEC
 70
     2
  9
$DIMTDEC
 70
     2
  9
$DIMALTU
 70
     2
  9
$DIMALTTD
 70
     3
  9
$DIMTXSTY
  7
Standard
  9
$DIMAUNIT
 70
     0
  9
$DIMADEC
 70
     2
  9
$DIMALTRND
 40
0.0
  9
$DIMAZIN
 70
     0
  9
$DIMDSEP
 70
    44
  9
$DIMATFIT
 70
     3
  9
$DIMFRAC
 70
     0
  9
$DIMLDRBLK
  1

  9
$DIMLUNIT
 70
     2
  9
$DIMLWD
 70
    -2
  9
$DIMLWE
 70
    -2
  9
$DIMTMOVE
 70
     0
  9
$LUNITS
 70
     2
  9
$LUPREC
 70
     2
  9
$SKETCHINC
 40
1.0
  9
$FILLETRAD
 40
10.0
  9
$AUNITS
 70
     0
  9
$AUPREC
 70
     2
  9
$MENU
  1
.
  9
$ELEVATION
 40
0.0
  9
$PELEVATION
 40
0.0
  9
$THICKNESS
 40
0.0
  9
$LIMCHECK
 70
     0
  9
$CHAMFERA
 40
0.0
  9
$CHAMFERB
 40
0.0
  9
$CHAMFERC
 40
0.0
  9
$CHAMFERD
 40
0.0
  9
$SKPOLY
 70
     0
  9
$TDCREATE
 40
2458985.698588206
  9
$TDUCREATE
 40
2458985.573588206
  9
$TDUPDATE
 40
2458985.698588507
  9
$TDUUPDATE
 40
2458985.573588507
  9
$TDINDWG
 40
0.0000000116
  9
$TDUSRTIMER
 40
0.0000000116
  9
$USRTIMER
 70
     1
  9
$ANGBASE
 50
0.0
  9
$ANGDIR
 70
     0
  9
$PDMODE
 70
     0
  9
$PDSIZE
 40
-1.0
  9
$PLINEWID
 40
0.0
  9
$SPLFRAME
 70
     0
  9
$SPLINETYPE
 70
     6
  9
$SPLINESEGS
 70
     8
  9
$HANDSEED
  5
EC
  9
$SURFTAB1
 70
     6
  9
$SURFTAB2
 70
     6
  9
$SURFTYPE
 70
     6
  9
$SURFU
 70
     6
  9
$SURFV
 70
     6
  9
$UCSBASE
  2

  9
$UCSNAME
  2

  9
$UCSORG
 10
0.0
 20
0.0
 30
0.0
  9
$UCSXDIR
 10
1.0
 20
0.0
 30
0.0
  9
$UCSYDIR
 10
0.0
 20
1.0
 30
0.0
  9
$UCSORTHOREF
  2

  9
$UCSORTHOVIEW
 70
     0
  9
$UCSORGTOP
 10
0.0
 20
0.0
 30
0.0
  9
$UCSORGBOTTOM
 10
0.0
 20
0.0
 30
0.0
  9
$UCSORGLEFT
 10
0.0
 20
0.0
 30
0.0
  9
$UCSORGRIGHT
 10
0.0
 20
0.0
 30
0.0
  9
$UCSORGFRONT
 10
0.0
 20
0.0
 30
0.0
  9
$UCSORGBACK
 10
0.0
 20
0.0
 30
0.0
  9
$PUCSBASE
  2

  9
$PUCSNAME
  2

  9
$PUCSORG
 10
0.0
 20
0.0
 30
0.0
  9
$PUCSXDIR
 10
1.0
 20
0.0
 30
0.0
  9
$PUCSYDIR
 10
0.0
 20
1.0
 30
0.0
  9
$PUCSORTHOREF
  2

  9
$PUCSORTHOVIEW
 70
     0
  9
$PUCSORGTOP
 10
0.0
 20
0.0
 30
0.0
  9
$PUCSORGBOTTOM
 10
0.0
 20
0.0
 30
0.0
  9
$PUCSORGLEFT
 10
0.0
 20
0.0
 30
0.0
  9
$PUCSORGRIGHT
 10
0.0
 20
0.0
 30
0.0
  9
$PUCSORGFRONT
 10
0.0
 20
0.0
 30
0.0
  9
$PUCSORGBACK
 10
0.0
 20
0.0
 30
0.0
  9
$USERI1
 70
     0
  9
$USERI2
 70
     0
  9
$USERI3
 70
     0
  9
$USERI4
 70
     0
  9
$USERI5
 70
     0
  9
$USERR1
 40
0.0
  9
$USERR2
 40
0.0
  9
$USERR3
 40
0.0
  9
$USERR4
 40
0.0
  9
$USERR5
 40
0.0
  9
$WORLDVIEW
 70
     1
  9
$SHADEDGE
 70
     3
  9
$SHADEDIF
 70
    70
  9
$TILEMODE
 70
     1
  9
$MAXACTVP
 70
    64
  9
$PINSBASE
 10
0.0
 20
0.0
 30
0.0
  9
$PLIMCHECK
 70
     0
  9
$PEXTMIN
 10
1.0000000000E+20
 20
1.0000000000E+20
 30
1.0000000000E+20
  9
$PEXTMAX
 10
-1.0000000000E+20
 20
-1.0000000000E+20
 30
-1.0000000000E+20
  9
$PLIMMIN
 10
0.0
 20
0.0
  9
$PLIMMAX
 10
420.0
 20
297.0
  9
$UNITMODE
 70
     0
  9
$VISRETAIN
 70
     1
  9
$PLINEGEN
 70
     0
  9
$PSLTSCALE
 70
     1
  9
$TREEDEPTH
 70
  3020
  9
$CMLSTYLE
  2
Standard
  9
$CMLJUST
 70
     0
  9
$CMLSCALE
 40
20.0
  9
$PROXYGRAPHICS
 70
     1
  9
$MEASUREMENT
 70
     1
  9
$CELWEIGHT
370
    -1
  9
$ENDCAPS
280
     0
  9
$JOINSTYLE
280
     0
  9
$LWDISPLAY
290
     1
  9
$INSUNITS
 70
     4
  9
$HYPERLINKBASE
  1

  9
$STYLESHEET
  1

  9
$XEDIT
290
     1
  9
$CEPSNTYPE
380
     0
  9
$PSTYLEMODE
290
     1
  9
$FINGERPRINTGUID
  2
{3a0e9022-a517-4bbd-aeb3-32a7371e927d}
  9
$VERSIONGUID
  2
{FAEB1C32-E019-11D5-929B-00C0DF256EC4}
  9
$EXTNAMES
290
     1
  9
$PSVPSCALE
 40
0.0
  9
$OLESTARTUP
290
     0
  0
ENDSEC
  0
SECTION
  2
CLASSES
  0
CLASS
  1
ACDBDICTIONARYWDFLT
  2
AcDbDictionaryWithDefault
  3
ObjectDBX Classes
 90
        0
280
     0
281
     0
  0
CLASS
  1
VISUALSTYLE
  2
AcDbVisualStyle
  3
ObjectDBX Classes
 90
     4095
280
     0
281
     0
  0
CLASS
  1
MATERIAL
  2
AcDbMaterial
  3
ObjectDBX Classes
 90
     1153
280
     0
281
     0
  0
CLASS
  1
SCALE
  2
AcDbScale
  3
ObjectDBX Classes
 90
     1153
280
     0
281
     0
  0
CLASS
  1
TABLESTYLE
  2
AcDbTableStyle
  3
ObjectDBX Classes
 90
     4095
280
     0
281
     0
  0
CLASS
  1
MLEADERSTYLE
  2
AcDbMLeaderStyle
  3
ACDB_MLEADERSTYLE_CLASS
 90
     4095
280
     0
281
     0
  0
CLASS
  1
SUN
  2
AcDbSun
  3
SCENEOE
 90
     1153
280
     0
281
     0
  0
CLASS
  1
ACDBPLACEHOLDER
  2
AcDbPlaceHolder
  3
ObjectDBX Classes
 90
        0
280
     0
281
     0
  0
CLASS
  1
LAYOUT
  2
AcDbLayout
  3
ObjectDBX Classes
 90
        0
280
     0
281
     0
  0
ENDSEC
  0
SECTION
  2
TABLES
  0
TABLE
  2
VPORT
  5
8
330
0
100
AcDbSymbolTable
 70
     1
  0
VPORT
  5
29
330
8
100
AcDbSymbolTableRecord
100
AcDbViewportTableRecord
  2
*Active
 70
     0
 10
0.0
 20
0.0
 11
1.0
 21
1.0
 12
139.7
 22
107.95
 13
0.0
 23
0.0
 14
10.0
 24
10.0
 15
10.0
 25
10.0
 16
0.0
 26
0.0
 36
1.0
 17
0.0
 27
0.0
 37
0.0
 40
215.9
 41
1.2941176471
 42
50.0
 43
0.0
 44
0.0
 50
0.0
 51
0.0
 71
     0
 72
  2000
 73
     1
 74
     3
 75
     0
 76
     0
 77
     0
 78
     0
281
     0
 65
     1
110
0.0
120
0.0
130
0.0
111
1.0
121
0.0
131
0.0
112
0.0
122
1.0
132
0.0
 79
     0
146
0.0
  0
ENDTAB
  0
TABLE
  2
LTYPE
  5
5
330
0
100
AcDbSymbolTable
 70
     6
  0
LTYPE
  5
14
330
5
100
AcDbSymbolTableRecord
100
AcDbLinetypeTableRecord
  2
ByBlock
 70
     0
  3

 72
    65
 73
     0
 40
0.0
  0
LTYPE
  5
15
330
5
100
AcDbSymbolTableRecord
100
AcDbLinetypeTableRecord
  2
ByLayer
 70
     0
  3

 72
    65
 73
     0
 40
0.0
  0
LTYPE
  5
16
330
5
100
AcDbSymbolTableRecord
100
AcDbLinetypeTableRecord
  2
Continuous
 70
     0
  3
Solid line
 72
    65
 73
     0
 40
0.0
  0
LTYPE
  5
6E
330
5
100
AcDbSymbolTableRecord
100
AcDbLinetypeTableRecord
  2
HIDDEN
 70
     0
  3
Hidden __ __ __ __ __ __ __ __ __ __ __ __ __ __
 72
    65
 73
     2
 40
1.905
 49
1.27
 74
     0
 49
-0.635
 74
     0
  0
LTYPE
  5
6F
330
5
100
AcDbSymbolTableRecord
100
AcDbLinetypeTableRecord
  2
PHANTOM
 70
     0
  3
Phantom ______  __  __  ______  __  __  ______
 72
    65
 73
     6
 40
12.7
 49
6.35
 74
     0
 49
-1.27
 74
     0
 49
1.27
 74
     0
 49
-1.27
 74
     0
 49
1.27
 74
     0
 49
-1.27
 74
     0
  0
LTYPE
  5
70
330
5
100
AcDbSymbolTableRecord
100
AcDbLinetypeTableRecord
  2
CENTER
 70
     0
  3
Center ____ _ ____ _ ____ _ ____ _ ____ _ ____
 72
    65
 73
     4
 40
10.16
 49
6.35
 74
     0
 49
-1.27
 74
     0
 49
1.27
 74
     0
 49
-1.27
 74
     0
  0
LTYPE
  5
71
330
5
100
AcDbSymbolTableRecord
100
AcDbLinetypeTableRecord
  2
CENTERX2
 70
     0
  3
Center (2x) ________  __  ________  __  _____
 72
    65
 73
     4
 40
20.32
 49
12.7
 74
     0
 49
-2.54
 74
     0
 49
2.54
 74
     0
 49
-2.54
 74
     0
  0
LTYPE
  5
72
330
5
100
AcDbSymbolTableRecord
100
AcDbLinetypeTableRecord
  2
DOT2
 70
     0
  3
Dot (.5x) ........................................
 72
    65
 73
     2
 40
0.635
 49
0.0
 74
     0
 49
-0.635
 74
     0
  0
ENDTAB
  0
TABLE
  2
LAYER
  5
2
330
0
100
AcDbSymbolTable
 70
    17
  0
LAYER
  5
10
330
2
100
AcDbSymbolTableRecord
100
AcDbLayerTableRecord
  2
0
 70
     0
 62
     7
  6
Continuous
370
    -3
390
F
  0
LAYER
  5
73
330
2
100
AcDbSymbolTableRecord
100
AcDbLayerTableRecord
  2
FORMAT
 70
     0
 62
     7
  6
Continuous
370
    -3
390
F
  0
LAYER
  5
74
330
2
100
AcDbSymbolTableRecord
100
AcDbLayerTableRecord
  2
YARDIMCI_GEOMETRI
 70
     0
 62
    -6
  6
Continuous
290
     0
370
    -3
390
F
  0
LAYER
  5
75
330
2
100
AcDbSymbolTableRecord
100
AcDbLayerTableRecord
  2
SAYFA_CERCEVESI
 70
     0
 62
     7
  6
Continuous
370
    25
390
F
  0
LAYER
  5
76
330
2
100
AcDbSymbolTableRecord
100
AcDbLayerTableRecord
  2
ANTET
 70
     0
 62
     7
  6
Continuous
370
    -3
390
F
  0
LAYER
  5
77
330
2
100
AcDbSymbolTableRecord
100
AcDbLayerTableRecord
  2
OLCU
 70
     0
 62
   150
  6
Continuous
370
    -3
390
F
  0
LAYER
  5
78
330
2
100
AcDbSymbolTableRecord
100
AcDbLayerTableRecord
  2
METIN
 70
     0
 62
    96
  6
Continuous
370
    -3
390
F
  0
LAYER
  5
79
330
2
100
AcDbSymbolTableRecord
100
AcDbLayerTableRecord
  2
BALON
 70
     0
 62
     5
  6
Continuous
370
    -3
390
F
  0
LAYER
  5
7A
330
2
100
AcDbSymbolTableRecord
100
AcDbLayerTableRecord
  2
VURGU
 70
     0
 62
     7
  6
Continuous
370
    -3
390
F
  0
LAYER
  5
7B
330
2
100
AcDbSymbolTableRecord
100
AcDbLayerTableRecord
  2
SILIK
 70
     0
 62
     7
  6
Continuous
370
    -3
390
F
  0
LAYER
  5
7C
330
2
100
AcDbSymbolTableRecord
100
AcDbLayerTableRecord
  2
MODEL
 70
     0
 62
     7
  6
Continuous
370
    -3
390
F
  0
LAYER
  5
7D
330
2
100
AcDbSymbolTableRecord
100
AcDbLayerTableRecord
  2
DETAYLANDıRMA
 70
     0
 62
   190
  6
Continuous
370
    -3
390
F
  0
LAYER
  5
7E
330
2
100
AcDbSymbolTableRecord
100
AcDbLayerTableRecord
  2
TOLERANS
 70
     0
 62
   230
  6
Continuous
370
    -3
390
F
  0
LAYER
  5
7F
330
2
100
AcDbSymbolTableRecord
100
AcDbLayerTableRecord
  2
MERKEZ_CIZGILERI
 70
     0
 62
    30
  6
Continuous
370
    -3
390
F
  0
LAYER
  5
80
330
2
100
AcDbSymbolTableRecord
100
AcDbLayerTableRecord
  2
KESIT-DETAY_CIZGILERI
 70
     0
 62
     7
  6
Continuous
370
    -3
390
F
  0
LAYER
  5
81
330
2
100
AcDbSymbolTableRecord
100
AcDbLayerTableRecord
  2
\U+041E\U+0421\U+0415\U+0412\U+042B\U+0415
 70
     0
 62
     7
  6
Continuous
370
    -3
390
F
  0
LAYER
  5
82
330
2
100
AcDbSymbolTableRecord
100
AcDbLayerTableRecord
  2
\U+0412\U+041E\U+0414\U+042F\U+041D\U+042B\U+0415_\U+0417\U+041D\U+0410\U+041A\U+0418
 70
     0
 62
    11
  6
Continuous
370
    -3
390
F
  0
ENDTAB
  0
TABLE
  2
STYLE
  5
3
330
0
100
AcDbSymbolTable
 70
     1
  0
STYLE
  5
11
330
3
100
AcDbSymbolTableRecord
100
AcDbTextStyleTableRecord
  2
Standard
 70
     0
 40
0.0
 41
1.0
 50
0.0
 71
     0
 42
3.5
  3
txt
  4

  0
ENDTAB
  0
TABLE
  2
VIEW
  5
6
330
0
100
AcDbSymbolTable
 70
     0
  0
ENDTAB
  0
TABLE
  2
UCS
  5
7
330
0
100
AcDbSymbolTable
 70
     0
  0
ENDTAB
  0
TABLE
  2
APPID
  5
9
330
0
100
AcDbSymbolTable
 70
     1
  0
APPID
  5
12
330
9
100
AcDbSymbolTableRecord
100
AcDbRegAppTableRecord
  2
ACAD
 70
     0
  0
ENDTAB
  0
TABLE
  2
DIMSTYLE
  5
A
330
0
100
AcDbSymbolTable
 70
     1
100
AcDbDimStyleTable
  0
DIMSTYLE
105
27
330
A
100
AcDbSymbolTableRecord
100
AcDbDimStyleTableRecord
  2
ISO-25
 70
     0
 41
2.5
 42
0.625
 43
3.75
 44
1.25
 73
     0
 74
     0
 77
     1
 78
     8
140
2.5
141
2.5
143
0.0393700787
147
0.625
171
     3
172
     1
178
     0
271
     2
272
     2
274
     3
278
    44
283
     0
284
     8
340
11
  0
ENDTAB
  0
TABLE
  2
BLOCK_RECORD
  5
1
330
0
100
AcDbSymbolTable
 70
     2
  0
BLOCK_RECORD
  5
1F
330
1
100
AcDbSymbolTableRecord
100
AcDbBlockTableRecord
  2
*Model_Space
340
22
  0
BLOCK_RECORD
  5
1B
330
1
100
AcDbSymbolTableRecord
100
AcDbBlockTableRecord
  2
*Paper_Space
340
1E
  0
BLOCK_RECORD
  5
23
330
1
100
AcDbSymbolTableRecord
100
AcDbBlockTableRecord
  2
*Paper_Space0
340
26
  0
BLOCK_RECORD
  5
88
330
1
100
AcDbSymbolTableRecord
100
AcDbBlockTableRecord
  2
SW_CENTERMARKSYMBOL_0
340
0
102
{BLKREFS
331
93
102
}
  0
ENDTAB
  0
ENDSEC
  0
SECTION
  2
BLOCKS
  0
BLOCK
  5
20
330
1F
100
AcDbEntity
  8
0
100
AcDbBlockBegin
  2
*Model_Space
 70
     0
 10
0.0
 20
0.0
 30
0.0
  3
*Model_Space
  1

  0
ENDBLK
  5
21
330
1F
100
AcDbEntity
  8
0
100
AcDbBlockEnd
  0
BLOCK
  5
1C
330
1B
100
AcDbEntity
 67
     1
  8
0
100
AcDbBlockBegin
  2
*Paper_Space
 70
     0
 10
0.0
 20
0.0
 30
0.0
  3
*Paper_Space
  1

  0
ENDBLK
  5
1D
330
1B
100
AcDbEntity
 67
     1
  8
0
100
AcDbBlockEnd
  0
BLOCK
  5
24
330
23
100
AcDbEntity
  8
0
100
AcDbBlockBegin
  2
*Paper_Space0
 70
     0
 10
0.0
 20
0.0
 30
0.0
  3
*Paper_Space0
  1

  0
ENDBLK
  5
25
330
23
100
AcDbEntity
  8
0
100
AcDbBlockEnd
  0
BLOCK
  5
89
330
88
100
AcDbEntity
  8
0
100
AcDbBlockBegin
  2
SW_CENTERMARKSYMBOL_0
 70
     0
 10
0.0
 20
0.0
 30
0.0
  3
SW_CENTERMARKSYMBOL_0
  1

  0
LINE
  5
8B
330
88
100
AcDbEntity
  8
FORMAT
 62
     0
100
AcDbLine
 10
0.0
 20
0.0
 30
0.0
 11
0.0
 21
2.5
 31
0.0
  0
LINE
  5
8C
330
88
100
AcDbEntity
  8
FORMAT
 62
     0
100
AcDbLine
 10
0.0
 20
0.0
 30
0.0
 11
-2.5
 21
0.0
 31
0.0
  0
LINE
  5
8D
330
88
100
AcDbEntity
  8
FORMAT
 62
     0
100
AcDbLine
 10
0.0
 20
0.0
 30
0.0
 11
0.0
 21
-2.5
 31
0.0
  0
LINE
  5
8E
330
88
100
AcDbEntity
  8
FORMAT
 62
     0
100
AcDbLine
 10
0.0
 20
0.0
 30
0.0
 11
2.5
 21
0.0
 31
0.0
  0
LINE
  5
8F
330
88
100
AcDbEntity
  8
FORMAT
 62
     0
100
AcDbLine
 10
0.0
 20
5.0
 30
0.0
 11
0.0
 21
27.5
 31
0.0
  0
LINE
  5
90
330
88
100
AcDbEntity
  8
FORMAT
 62
     0
100
AcDbLine
 10
-5.0
 20
0.0
 30
0.0
 11
-27.5
 21
0.0
 31
0.0
  0
LINE
  5
91
330
88
100
AcDbEntity
  8
FORMAT
 62
     0
100
AcDbLine
 10
0.0
 20
-5.0
 30
0.0
 11
0.0
 21
-27.5
 31
0.0
  0
LINE
  5
92
330
88
100
AcDbEntity
  8
FORMAT
 62
     0
100
AcDbLine
 10
5.0
 20
0.0
 30
0.0
 11
27.5
 21
0.0
 31
0.0
  0
ENDBLK
  5
8A
330
88
100
AcDbEntity
  8
0
100
AcDbBlockEnd
  0
ENDSEC
  0
SECTION
  2
ENTITIES
  0
CIRCLE
  5
83
330
1F
100
AcDbEntity
  8
0
  6
Continuous
 62
     7
370
    25
100
AcDbCircle
 10
139.395004093
 20
107.5851680021
 30
0.0
 40
25.0
  0
CIRCLE
  5
84
330
1F
100
AcDbEntity
  8
0
  6
Continuous
 62
     7
370
    25
100
AcDbCircle
 10
139.395004093
 20
107.5851680021
 30
0.0
 40
20.40000000000001
  0
CIRCLE
  5
85
330
1F
100
AcDbEntity
  8
0
  6
Continuous
 62
     7
370
    25
100
AcDbCircle
 10
139.395004093
 20
107.5851680021
 30
0.0
 40
20.20967678741293
  0
CIRCLE
  5
86
330
1F
100
AcDbEntity
  8
0
  6
Continuous
 62
     7
370
    25
100
AcDbCircle
 10
139.395004093
 20
107.5851680021
 30
0.0
 40
9.69032321258706
  0
CIRCLE
  5
87
330
1F
100
AcDbEntity
  8
0
  6
Continuous
 62
     7
370
    25
100
AcDbCircle
 10
139.395004093
 20
107.5851680021
 30
0.0
 40
9.5
  0
INSERT
  5
93
330
1F
100
AcDbEntity
  8
FORMAT
 62
     7
100
AcDbBlockReference
  2
SW_CENTERMARKSYMBOL_0
 10
139.395004093
 20
107.5851680021
 30
0.0
  0
LINE
  5
94
330
1F
100
AcDbEntity
  8
0
  6
Continuous
 62
     7
370
    25
100
AcDbLine
 10
-29.380956614
 20
132.5851683746
 30
0.0
 11
-84.1023772448
 21
132.5851683746
 31
0.0
  0
LINE
  5
95
330
1F
100
AcDbEntity
  8
0
  6
Continuous
 62
     7
370
    25
100
AcDbLine
 10
-84.1023772448
 20
82.5851676296
 30
0.0
 11
-29.380956614
 21
82.5851676296
 31
0.0
  0
ARC
  5
96
330
1F
100
AcDbEntity
  8
0
  6
Continuous
 62
     7
370
    25
100
AcDbCircle
 10
-29.3809558498
 20
130.5851680021
 30
0.0
 40
2.000000000000006
100
AcDbArc
 50
74.1406337334
 51
90.0
  0
ARC
  5
97
330
1F
100
AcDbEntity
  8
0
  6
Continuous
 62
     7
370
    25
100
AcDbCircle
 10
-29.3809558498
 20
84.5851680021
 30
0.0
 40
2.0
100
AcDbArc
 50
270.0
 51
285.8593662666
  0
LINE
  5
98
330
1F
100
AcDbEntity
  8
0
  6
Continuous
 62
     7
370
    25
100
AcDbLine
 10
-28.8344025105
 20
82.6612976621
 30
0.0
 11
14.6296490491
 21
95.0090387146
 31
0.0
  0
LINE
  5
99
330
1F
100
AcDbEntity
  8
0
  6
Continuous
 62
     7
370
    25
100
AcDbLine
 10
14.6296490491
 20
120.1612972896
 30
0.0
 11
-28.8344025105
 21
132.5090383421
 31
0.0
  0
ARC
  5
9A
330
1F
100
AcDbEntity
  8
0
  6
Continuous
 62
     7
370
    25
100
AcDbCircle
 10
15.1762023443
 20
122.0851680021
 30
0.0
 40
2.000000000000014
100
AcDbArc
 50
254.1406337334
 51
270.0
  0
ARC
  5
9B
330
1F
100
AcDbEntity
  8
0
  6
Continuous
 62
     7
370
    25
100
AcDbCircle
 10
15.1762023443
 20
93.0851680021
 30
0.0
 40
2.0
100
AcDbArc
 50
90.0
 51
105.8593662666
  0
LINE
  5
9C
330
1F
100
AcDbEntity
  8
0
  6
Continuous
 62
     7
370
    25
100
AcDbLine
 10
55.8976233512
 20
120.0851681884
 30
0.0
 11
15.1762031525
 21
120.0851681884
 31
0.0
  0
LINE
  5
9D
330
1F
100
AcDbEntity
  8
0
  6
Continuous
 62
     7
370
    25
100
AcDbLine
 10
15.1762031525
 20
95.0851678159
 30
0.0
 11
55.8976233512
 21
95.0851678159
 31
0.0
  0
LINE
  5
9E
330
1F
100
AcDbEntity
  8
0
  6
Continuous
 62
     7
370
    25
100
AcDbLine
 10
-84.1023772448
 20
132.5851683746
 30
0.0
 11
-84.1023772448
 21
82.5851676296
 31
0.0
  0
LINE
  5
9F
330
1F
100
AcDbEntity
  8
0
  6
Continuous
 62
     7
370
    25
100
AcDbLine
 10
55.8976233512
 20
120.0851681884
 30
0.0
 11
55.8976233512
 21
95.0851678159
 31
0.0
  0
LINE
  5
A0
330
1F
100
AcDbEntity
  8
0
  6
Continuous
 62
     1
370
    25
100
AcDbLine
 10
-29.380956614
 20
132.5851683746
 30
0.0
 11
-29.380956614
 21
82.5851676296
 31
0.0
  0
LINE
  5
A1
330
1F
100
AcDbEntity
  8
0
  6
Continuous
 62
     1
370
    25
100
AcDbLine
 10
-28.8344025105
 20
132.5090383421
 30
0.0
 11
-28.8344025105
 21
82.6612976621
 31
0.0
  0
LINE
  5
A2
330
1F
100
AcDbEntity
  8
0
  6
Continuous
 62
     1
370
    25
100
AcDbLine
 10
14.6296490491
 20
120.1612972896
 30
0.0
 11
14.6296490491
 21
95.0090387146
 31
0.0
  0
LINE
  5
A3
330
1F
100
AcDbEntity
  8
0
  6
Continuous
 62
     1
370
    25
100
AcDbLine
 10
15.1762031525
 20
120.0851681884
 30
0.0
 11
15.1762031525
 21
95.0851678159
 31
0.0
  0
LINE
  5
A4
330
1F
100
AcDbEntity
  8
0
  6
Continuous
 62
     7
370
    25
100
AcDbLine
 10
298.8446842497
 20
82.5851676296
 30
0.0
 11
353.5661048805
 21
82.5851676296
 31
0.0
  0
LINE
  5
A5
330
1F
100
AcDbEntity
  8
0
  6
Continuous
 62
     7
370
    25
100
AcDbLine
 10
353.5661048805
 20
132.5851683746
 30
0.0
 11
298.8446842497
 21
132.5851683746
 31
0.0
  0
ARC
  5
A6
330
1F
100
AcDbEntity
  8
0
  6
Continuous
 62
     7
370
    25
100
AcDbCircle
 10
298.8446834855
 20
84.5851680021
 30
0.0
 40
2.0
100
AcDbArc
 50
254.1406337334
 51
270.0
  0
ARC
  5
A7
330
1F
100
AcDbEntity
  8
0
  6
Continuous
 62
     7
370
    25
100
AcDbCircle
 10
298.8446834855
 20
130.5851680021
 30
0.0
 40
2.000000000000007
100
AcDbArc
 50
90.0
 51
105.8593662666
  0
LINE
  5
A8
330
1F
100
AcDbEntity
  8
0
  6
Continuous
 62
     7
370
    25
100
AcDbLine
 10
298.2981301462
 20
132.5090383421
 30
0.0
 11
254.8340785866
 21
120.1612972896
 31
0.0
  0
LINE
  5
A9
330
1F
100
AcDbEntity
  8
0
  6
Continuous
 62
     7
370
    25
100
AcDbLine
 10
254.8340785866
 20
95.0090387146
 30
0.0
 11
298.2981301462
 21
82.6612976621
 31
0.0
  0
ARC
  5
AA
330
1F
100
AcDbEntity
  8
0
  6
Continuous
 62
     7
370
    25
100
AcDbCircle
 10
254.2875252913
 20
93.0851680021
 30
0.0
 40
2.000000000000001
100
AcDbArc
 50
74.1406337334
 51
90.0
  0
ARC
  5
AB
330
1F
100
AcDbEntity
  8
0
  6
Continuous
 62
     7
370
    25
100
AcDbCircle
 10
254.2875252913
 20
122.0851680021
 30
0.0
 40
2.000000000000015
100
AcDbArc
 50
270.0
 51
285.8593662666
  0
LINE
  5
AC
330
1F
100
AcDbEntity
  8
0
  6
Continuous
 62
     7
370
    25
100
AcDbLine
 10
213.5661042845
 20
95.0851678159
 30
0.0
 11
254.2875244831
 21
95.0851678159
 31
0.0
  0
LINE
  5
AD
330
1F
100
AcDbEntity
  8
0
  6
Continuous
 62
     7
370
    25
100
AcDbLine
 10
254.2875244831
 20
120.0851681884
 30
0.0
 11
213.5661042845
 21
120.0851681884
 31
0.0
  0
LINE
  5
AE
330
1F
100
AcDbEntity
  8
0
  6
Continuous
 62
     7
370
    25
100
AcDbLine
 10
353.5661048805
 20
107.5851680021
 30
0.0
 11
353.5661048805
 21
132.5851683746
 31
0.0
  0
LINE
  5
AF
330
1F
100
AcDbEntity
  8
0
  6
Continuous
 62
     7
370
    25
100
AcDbLine
 10
353.5661048805
 20
82.5851676296
 30
0.0
 11
353.5661048805
 21
107.5851680021
 31
0.0
  0
LINE
  5
B0
330
1F
100
AcDbEntity
  8
0
  6
Continuous
 62
     7
370
    25
100
AcDbLine
 10
213.5661042845
 20
107.5851680021
 30
0.0
 11
213.5661042845
 21
120.0851681884
 31
0.0
  0
LINE
  5
B1
330
1F
100
AcDbEntity
  8
0
  6
Continuous
 62
     7
370
    25
100
AcDbLine
 10
213.5661042845
 20
95.0851678159
 30
0.0
 11
213.5661042845
 21
107.5851680021
 31
0.0
  0
LINE
  5
B2
330
1F
100
AcDbEntity
  8
0
  6
Continuous
 62
     1
370
    25
100
AcDbLine
 10
298.8446842497
 20
107.5851680021
 30
0.0
 11
298.8446842497
 21
132.5851683746
 31
0.0
  0
LINE
  5
B3
330
1F
100
AcDbEntity
  8
0
  6
Continuous
 62
     1
370
    25
100
AcDbLine
 10
298.8446842497
 20
82.5851676296
 30
0.0
 11
298.8446842497
 21
107.5851680021
 31
0.0
  0
LINE
  5
B4
330
1F
100
AcDbEntity
  8
0
  6
Continuous
 62
     1
370
    25
100
AcDbLine
 10
298.2981301462
 20
107.5851680021
 30
0.0
 11
298.2981301462
 21
132.5090383421
 31
0.0
  0
LINE
  5
B5
330
1F
100
AcDbEntity
  8
0
  6
Continuous
 62
     1
370
    25
100
AcDbLine
 10
298.2981301462
 20
82.6612976621
 30
0.0
 11
298.2981301462
 21
107.5851680021
 31
0.0
  0
LINE
  5
B6
330
1F
100
AcDbEntity
  8
0
  6
Continuous
 62
     1
370
    25
100
AcDbLine
 10
254.8340785866
 20
107.5851680021
 30
0.0
 11
254.8340785866
 21
120.1612972896
 31
0.0
  0
LINE
  5
B7
330
1F
100
AcDbEntity
  8
0
  6
Continuous
 62
     1
370
    25
100
AcDbLine
 10
254.8340785866
 20
95.0090387146
 30
0.0
 11
254.8340785866
 21
107.5851680021
 31
0.0
  0
LINE
  5
B8
330
1F
100
AcDbEntity
  8
0
  6
Continuous
 62
     1
370
    25
100
AcDbLine
 10
254.2875244831
 20
107.5851680021
 30
0.0
 11
254.2875244831
 21
120.0851681884
 31
0.0
  0
LINE
  5
B9
330
1F
100
AcDbEntity
  8
0
  6
Continuous
 62
     1
370
    25
100
AcDbLine
 10
254.2875244831
 20
95.0851678159
 30
0.0
 11
254.2875244831
 21
107.5851680021
 31
0.0
  0
LINE
  5
BA
330
1F
100
AcDbEntity
  8
0
  6
Continuous
 62
     7
370
    25
100
AcDbLine
 10
164.3950044656
 20
273.9520609494
 30
0.0
 11
164.3950044656
 21
328.6734815802
 31
0.0
  0
LINE
  5
BB
330
1F
100
AcDbEntity
  8
0
  6
Continuous
 62
     7
370
    25
100
AcDbLine
 10
114.3950037205
 20
328.6734815802
 30
0.0
 11
114.3950037205
 21
273.9520609494
 31
0.0
  0
ARC
  5
BC
330
1F
100
AcDbEntity
  8
0
  6
Continuous
 62
     7
370
    25
100
AcDbCircle
 10
162.395004093
 20
273.9520601852
 30
0.0
 40
2.0
100
AcDbArc
 50
344.1406337334
 51
0.0
  0
ARC
  5
BD
330
1F
100
AcDbEntity
  8
0
  6
Continuous
 62
     7
370
    25
100
AcDbCircle
 10
116.395004093
 20
273.9520601852
 30
0.0
 40
2.0
100
AcDbArc
 50
180.0
 51
195.8593662666
  0
LINE
  5
BE
330
1F
100
AcDbEntity
  8
0
  6
Continuous
 62
     7
370
    25
100
AcDbLine
 10
114.4711337531
 20
273.4055068459
 30
0.0
 11
126.8188748056
 21
229.9414552863
 31
0.0
  0
LINE
  5
BF
330
1F
100
AcDbEntity
  8
0
  6
Continuous
 62
     7
370
    25
100
AcDbLine
 10
151.9711333805
 20
229.9414552863
 30
0.0
 11
164.318874433
 21
273.4055068459
 31
0.0
  0
ARC
  5
C0
330
1F
100
AcDbEntity
  8
0
  6
Continuous
 62
     7
370
    25
100
AcDbCircle
 10
153.895004093
 20
229.3949019911
 30
0.0
 40
2.0
100
AcDbArc
 50
164.1406337334
 51
180.0
  0
ARC
  5
C1
330
1F
100
AcDbEntity
  8
0
  6
Continuous
 62
     7
370
    25
100
AcDbCircle
 10
124.895004093
 20
229.3949019911
 30
0.0
 40
2.0
100
AcDbArc
 50
0.0
 51
15.8593662666
  0
LINE
  5
C2
330
1F
100
AcDbEntity
  8
0
  6
Continuous
 62
     7
370
    25
100
AcDbLine
 10
151.8950042793
 20
188.6734809842
 30
0.0
 11
151.8950042793
 21
229.3949011829
 31
0.0
  0
LINE
  5
C3
330
1F
100
AcDbEntity
  8
0
  6
Continuous
 62
     7
370
    25
100
AcDbLine
 10
126.8950039068
 20
229.3949011829
 30
0.0
 11
126.8950039068
 21
188.6734809842
 31
0.0
  0
LINE
  5
C4
330
1F
100
AcDbEntity
  8
0
  6
Continuous
 62
     7
370
    25
100
AcDbLine
 10
164.3950044656
 20
328.6734815802
 30
0.0
 11
114.3950037205
 21
328.6734815802
 31
0.0
  0
LINE
  5
C5
330
1F
100
AcDbEntity
  8
0
  6
Continuous
 62
     7
370
    25
100
AcDbLine
 10
151.8950042793
 20
188.6734809842
 30
0.0
 11
126.8950039068
 21
188.6734809842
 31
0.0
  0
LINE
  5
C6
330
1F
100
AcDbEntity
  8
0
  6
Continuous
 62
     1
370
    25
100
AcDbLine
 10
164.3950044656
 20
273.9520609494
 30
0.0
 11
114.3950037205
 21
273.9520609494
 31
0.0
  0
LINE
  5
C7
330
1F
100
AcDbEntity
  8
0
  6
Continuous
 62
     1
370
    25
100
AcDbLine
 10
164.318874433
 20
273.4055068459
 30
0.0
 11
114.4711337531
 21
273.4055068459
 31
0.0
  0
LINE
  5
C8
330
1F
100
AcDbEntity
  8
0
  6
Continuous
 62
     1
370
    25
100
AcDbLine
 10
151.9711333805
 20
229.9414552863
 30
0.0
 11
126.8188748056
 21
229.9414552863
 31
0.0
  0
LINE
  5
C9
330
1F
100
AcDbEntity
  8
0
  6
Continuous
 62
     1
370
    25
100
AcDbLine
 10
151.8950042793
 20
229.3949011829
 30
0.0
 11
126.8950039068
 21
229.3949011829
 31
0.0
  0
LINE
  5
CA
330
1F
100
AcDbEntity
  8
0
  6
Continuous
 62
     7
370
    25
100
AcDbLine
 10
114.3950037205
 20
-65.2029888307
 30
0.0
 11
114.3950037205
 21
-119.9244094615
 31
0.0
  0
LINE
  5
CB
330
1F
100
AcDbEntity
  8
0
  6
Continuous
 62
     7
370
    25
100
AcDbLine
 10
164.3950044656
 20
-119.9244094615
 30
0.0
 11
164.3950044656
 21
-65.2029888307
 31
0.0
  0
ARC
  5
CC
330
1F
100
AcDbEntity
  8
0
  6
Continuous
 62
     7
370
    25
100
AcDbCircle
 10
116.395004093
 20
-65.2029880664
 30
0.0
 40
2.0
100
AcDbArc
 50
164.1406337334
 51
180.0
  0
ARC
  5
CD
330
1F
100
AcDbEntity
  8
0
  6
Continuous
 62
     7
370
    25
100
AcDbCircle
 10
162.395004093
 20
-65.2029880664
 30
0.0
 40
2.0
100
AcDbArc
 50
0.0
 51
15.8593662666
  0
LINE
  5
CE
330
1F
100
AcDbEntity
  8
0
  6
Continuous
 62
     7
370
    25
100
AcDbLine
 10
164.318874433
 20
-64.6564347272
 30
0.0
 11
151.9711333805
 21
-21.1923831676
 31
0.0
  0
LINE
  5
CF
330
1F
100
AcDbEntity
  8
0
  6
Continuous
 62
     7
370
    25
100
AcDbLine
 10
126.8188748056
 20
-21.1923831676
 30
0.0
 11
114.4711337531
 21
-64.6564347272
 31
0.0
  0
ARC
  5
D0
330
1F
100
AcDbEntity
  8
0
  6
Continuous
 62
     7
370
    25
100
AcDbCircle
 10
124.895004093
 20
-20.6458298723
 30
0.0
 40
2.0
100
AcDbArc
 50
344.1406337334
 51
0.0
  0
ARC
  5
D1
330
1F
100
AcDbEntity
  8
0
  6
Continuous
 62
     7
370
    25
100
AcDbCircle
 10
153.895004093
 20
-20.6458298723
 30
0.0
 40
2.0
100
AcDbArc
 50
180.0
 51
195.8593662666
  0
LINE
  5
D2
330
1F
100
AcDbEntity
  8
0
  6
Continuous
 62
     7
370
    25
100
AcDbLine
 10
126.8950039068
 20
20.0755911346
 30
0.0
 11
126.8950039068
 21
-20.6458290641
 31
0.0
  0
LINE
  5
D3
330
1F
100
AcDbEntity
  8
0
  6
Continuous
 62
     7
370
    25
100
AcDbLine
 10
151.8950042793
 20
-20.6458290641
 30
0.0
 11
151.8950042793
 21
20.0755911346
 31
0.0
  0
LINE
  5
D4
330
1F
100
AcDbEntity
  8
0
  6
Continuous
 62
     7
370
    25
100
AcDbLine
 10
114.3950037205
 20
-119.9244094615
 30
0.0
 11
164.3950044656
 21
-119.9244094615
 31
0.0
  0
LINE
  5
D5
330
1F
100
AcDbEntity
  8
0
  6
Continuous
 62
     7
370
    25
100
AcDbLine
 10
126.8950039068
 20
20.0755911346
 30
0.0
 11
151.8950042793
 21
20.0755911346
 31
0.0
  0
LINE
  5
D6
330
1F
100
AcDbEntity
  8
0
  6
Continuous
 62
     1
370
    25
100
AcDbLine
 10
114.3950037205
 20
-65.2029888307
 30
0.0
 11
164.3950044656
 21
-65.2029888307
 31
0.0
  0
LINE
  5
D7
330
1F
100
AcDbEntity
  8
0
  6
Continuous
 62
     1
370
    25
100
AcDbLine
 10
114.4711337531
 20
-64.6564347272
 30
0.0
 11
164.318874433
 21
-64.6564347272
 31
0.0
  0
LINE
  5
D8
330
1F
100
AcDbEntity
  8
0
  6
Continuous
 62
     1
370
    25
100
AcDbLine
 10
126.8188748056
 20
-21.1923831676
 30
0.0
 11
151.9711333805
 21
-21.1923831676
 31
0.0
  0
LINE
  5
D9
330
1F
100
AcDbEntity
  8
0
  6
Continuous
 62
     1
370
    25
100
AcDbLine
 10
126.8950039068
 20
-20.6458290641
 30
0.0
 11
151.8950042793
 21
-20.6458290641
 31
0.0
  0
LINE
  5
DA
330
1F
100
AcDbEntity
  8
0
  6
Continuous
 62
     7
370
    25
100
AcDbLine
 10
292.5388279528
 20
-6.9944935549
 30
0.0
 11
253.8449403486
 21
15.3430122918
 31
0.0
  0
LINE
  5
DB
330
1F
100
AcDbEntity
  8
0
  6
Continuous
 62
     7
370
    25
100
AcDbLine
 10
228.8469727814
 20
-27.9594310705
 30
0.0
 11
267.5408603856
 21
-50.2969369172
 31
0.0
  0
SPLINE
  5
DC
330
1F
100
AcDbEntity
  8
0
  6
Continuous
 62
     7
370
    25
100
AcDbSpline
210
0.0
220
0.0
230
1.0
 70
     8
 71
     3
 72
    12
 73
     8
 74
     0
 42
0.000000001
 43
0.00000001
 40
0.0
 40
0.0
 40
0.0
 40
0.0
 40
0.0768668464313271
 40
0.3597373661745705
 40
0.6397271332066966
 40
0.9174819540179086
 40
1.0
 40
1.0
 40
1.0
 40
1.0
 10
295.2278482542812
 20
-9.292085270528844
 30
0.0
 10
295.1713354780582
 20
-9.219417638097031
 30
0.0
 10
294.9068552994443
 20
-8.87933262211401
 30
0.0
 10
294.3711693225374
 20
-8.344453829297597
 30
0.0
 10
293.6214257731727
 20
-7.704171767064061
 30
0.0
 10
293.013460134876
 20
-7.264085410279966
 30
0.0
 10
292.6437338293038
 20
-7.063800150528401
 30
0.0
 10
292.5590505375657
 20
-7.017926176113347
 30
0.0
  0
SPLINE
  5
DD
330
1F
100
AcDbEntity
  8
0
  6
Continuous
 62
     7
370
    25
100
AcDbSpline
210
0.0
220
0.0
230
1.0
 70
     8
 71
     3
 72
    11
 73
     7
 74
     0
 42
0.000000001
 43
0.00000001
 40
0.0
 40
0.0
 40
0.0
 40
0.0
 40
0.2256810967363713
 40
0.5030129778048292
 40
0.7807861493809825
 40
1.0
 40
1.0
 40
1.0
 40
1.0
 10
267.5254306877831
 20
-50.27949931551634
 30
0.0
 10
267.7537155014206
 20
-50.40840235850999
 30
0.0
 10
268.2625318159282
 20
-50.6957099994334
 30
0.0
 10
269.1069688032988
 20
-51.03689612095799
 30
0.0
 10
269.9715007573637
 20
-51.31171700932928
 30
0.0
 10
270.5504827940632
 20
-51.41904270052282
 30
0.0
 10
270.8058634700888
 20
-51.46638252427307
 30
0.0
  0
LINE
  5
DE
330
1F
100
AcDbEntity
  8
0
  6
Continuous
 62
     7
370
    25
100
AcDbLine
 10
270.7232405005
 20
-51.4594373746
 30
0.0
 11
306.2640472935
 21
-58.0098350026
 31
0.0
  0
LINE
  5
DF
330
1F
100
AcDbEntity
  8
0
  6
Continuous
 62
     7
370
    25
100
AcDbLine
 10
318.5827729573
 20
-36.6708645238
 30
0.0
 11
295.1369783318
 21
-9.1690213832
 31
0.0
  0
LINE
  5
E0
330
1F
100
AcDbEntity
  8
0
  6
Continuous
 62
     7
370
    25
100
AcDbLine
 10
346.5903982444
 20
-52.6311666197
 30
0.0
 11
318.2333466072
 21
-36.2609891585
 31
0.0
  0
LINE
  5
E1
330
1F
100
AcDbEntity
  8
0
  6
Continuous
 62
     7
370
    25
100
AcDbLine
 10
305.7343628236
 20
-57.9122108397
 30
0.0
 11
334.0914144608
 21
-74.2823883008
 31
0.0
  0
LWPOLYLINE
  5
E2
330
1F
100
AcDbEntity
  8
0
  6
Continuous
 62
     7
370
    25
100
AcDbPolyline
 90
       97
 70
   128
 43
0.0
 10
223.6682867719
 20
-16.5133109392
 10
223.706135959
 20
-15.1563529678
 10
223.8195215182
 20
-13.7615059369
 10
224.0079587608
 20
-12.3347421915
 10
224.2706389941
 20
-10.8821724503
 10
224.6064387413
 20
-9.4100162437
 10
225.013919741
 20
-7.9245776742
 10
225.4913368505
 20
-6.4322170896
 10
226.0366459474
 20
-4.9393259887
 10
226.647511833
 20
-3.4522966035
 10
227.3213187685
 20
-1.9774968047
 10
228.0551810118
 20
-0.5212412055
 10
228.8459559887
 20
0.9102331724
 10
229.6902587802
 20
2.3107965553
 10
230.5844733185
 20
3.6744526523
 10
231.5247695088
 20
4.9953614679
 10
232.5071216685
 20
6.2678666764
 10
233.5273230152
 20
7.4865191957
 10
234.5810054232
 20
8.646100759
 10
235.663655887
 20
9.7416455868
 10
236.7706389119
 20
10.7684624384
 10
237.8972142944
 20
11.7221540015
 10
239.0385577022
 20
12.5986378987
 10
240.1897816648
 20
13.3941588049
 10
241.345956565
 20
14.105311212
 10
242.5021314652
 20
14.7290499307
 10
243.6533554278
 20
15.2627039194
 10
244.7946988356
 20
15.7039870714
 10
245.9212742181
 20
16.0510117584
 10
247.028257243
 20
16.3022903024
 10
248.1109077068
 20
16.4567470931
 10
249.1645901148
 20
16.513721343
 10
250.1847914615
 20
16.4729682263
 10
251.1671436212
 20
16.3346626791
 10
252.1074398115
 20
16.0993967363
 10
253.0016543498
 20
15.7681787692
 10
253.8459571413
 20
15.34242664
 10
254.6367321182
 20
14.8239616163
 10
255.3705943615
 20
14.215005328
 10
256.044401297
 20
13.5181664576
 10
256.6552671826
 20
12.7364278114
 10
257.2005762795
 20
11.8731371924
 10
257.677993389
 20
10.9319906694
 10
258.0854743887
 20
9.917019648
 10
258.4212741359
 20
8.832569577
 10
258.6839543692
 20
7.6832839776
 10
258.8723916118
 20
6.4740852415
 10
258.985777171
 20
5.2101503907
 10
259.0236263581
 20
3.8968921605
 10
258.985777171
 20
2.5399341891
 10
258.8723916118
 20
1.1450871583
 10
258.6839543692
 20
-0.2816765871
 10
258.4212741359
 20
-1.7342463283
 10
258.0854743887
 20
-3.2064025349
 10
257.677993389
 20
-4.6918411044
 10
257.2005762795
 20
-6.184201689
 10
256.6552671826
 20
-7.6770927899
 10
256.044401297
 20
-9.1641221752
 10
255.3705943615
 20
-10.6389219739
 10
254.6367321182
 20
-12.0951775731
 10
253.8459571413
 20
-13.5266519511
 10
253.0016543498
 20
-14.927215334
 10
252.1074398115
 20
-16.290871431
 10
251.1671436212
 20
-17.6117802465
 10
250.1847914615
 20
-18.8842854551
 10
249.1645901148
 20
-20.1029379744
 10
248.1109077068
 20
-21.2625195377
 10
247.028257243
 20
-22.3580643655
 10
245.9212742181
 20
-23.384881217
 10
244.7946988356
 20
-24.3385727801
 10
243.6533554278
 20
-25.2150566773
 10
242.5021314652
 20
-26.0105775835
 10
241.345956565
 20
-26.7217299907
 10
240.1897816648
 20
-27.3454687094
 10
239.0385577022
 20
-27.8791226981
 10
237.8972142944
 20
-28.32040585
 10
236.7706389119
 20
-28.667430537
 10
235.663655887
 20
-28.918709081
 10
234.5810054232
 20
-29.0731658717
 10
233.5273230152
 20
-29.1301401216
 10
232.5071216685
 20
-29.0893870049
 10
231.5247695088
 20
-28.9510814578
 10
230.5844733185
 20
-28.715815515
 10
229.6902587802
 20
-28.3845975478
 10
228.8459559887
 20
-27.9588454186
 10
228.0551810118
 20
-27.440380395
 10
227.3213187685
 20
-26.8314241067
 10
226.647511833
 20
-26.1345852363
 10
226.0366459474
 20
-25.35284659
 10
225.4913368505
 20
-24.489555971
 10
225.013919741
 20
-23.5484094481
 10
224.6064387413
 20
-22.5334384267
 10
224.2706389941
 20
-21.4489883556
 10
224.0079587608
 20
-20.2997027562
 10
223.8195215182
 20
-19.0905040201
 10
223.706135959
 20
-17.8265691694
 10
223.6682867719
 20
-16.5133109392
  0
LWPOLYLINE
  5
E3
330
1F
100
AcDbEntity
  8
0
  6
Continuous
 62
     7
370
    25
100
AcDbPolyline
 90
       87
 70
   128
 43
0.0
 10
226.9209777083
 20
-14.6355724304
 10
226.9594604152
 20
-13.3974422635
 10
227.0747004357
 20
-12.1214885515
 10
227.2660826893
 20
-10.8145190907
 10
227.5325890663
 20
-9.4835055191
 10
227.8727944762
 20
-8.1355508067
 10
228.2848852875
 20
-6.7778464808
 10
228.7666632786
 20
-5.4176357444
 10
229.3155561748
 20
-4.0621781148
 10
229.9286374041
 20
-2.7187022779
 10
230.6026340004
 20
-1.3943790915
 10
231.3339516278
 20
-0.0962729187
 10
232.118687093
 20
1.1686899306
 10
232.9526540284
 20
2.3937596003
 10
233.8314033075
 20
3.5724010898
 10
234.7502460934
 20
4.69832429
 10
235.7042795221
 20
5.7655246659
 10
236.6884137032
 20
6.7683049267
 10
237.6973980613
 20
7.7013176099
 10
238.725848995
 20
8.5595825688
 10
239.7682791823
 20
9.3385206209
 10
240.8191271736
 20
10.0339782355
 10
241.8727859564
 20
10.6422425035
 10
242.9236339477
 20
11.1600681542
 10
243.966064135
 20
11.5846943778
 10
244.9945150687
 20
11.9138535919
 10
246.0034994268
 20
12.145789452
 10
246.9876336079
 20
12.2792663307
 10
247.9416670366
 20
12.3135695055
 10
248.8605098225
 20
12.2485196045
 10
249.7392591016
 20
12.0844604366
 10
250.573226037
 20
11.8222684952
 10
251.3579615022
 20
11.4633419284
 10
252.0892791296
 20
11.0095971154
 10
252.7632757259
 20
10.4634538352
 10
253.3763569552
 20
9.8278265186
 10
253.9252498514
 20
9.1061071375
 10
254.4070278425
 20
8.3021454295
 10
254.8191186538
 20
7.420231027
 10
255.1593240637
 20
6.46506912
 10
255.4258304407
 20
5.4417572616
 10
255.6172126943
 20
4.3557530474
 10
255.7324527149
 20
3.2128526311
 10
255.7709354217
 20
2.0191536518
 10
255.7324527149
 20
0.7810234848
 10
255.6172126943
 20
-0.4949302271
 10
255.4258304407
 20
-1.801899688
 10
255.1593240637
 20
-3.1329132596
 10
254.8191186538
 20
-4.480867972
 10
254.4070278425
 20
-5.8385722978
 10
253.9252498514
 20
-7.1987830343
 10
253.3763569552
 20
-8.5542406638
 10
252.7632757259
 20
-9.8977165007
 10
252.0892791296
 20
-11.2220396871
 10
251.3579615022
 20
-12.5201458599
 10
250.573226037
 20
-13.7851087092
 10
249.7392591016
 20
-15.0101783789
 10
248.8605098225
 20
-16.1888198684
 10
247.9416670366
 20
-17.3147430687
 10
246.9876336079
 20
-18.3819434445
 10
246.0034994268
 20
-19.3847237053
 10
244.9945150687
 20
-20.3177363885
 10
243.966064135
 20
-21.1760013475
 10
242.9236339477
 20
-21.9549393995
 10
241.8727859564
 20
-22.6503970142
 10
240.8191271736
 20
-23.2586612822
 10
239.7682791823
 20
-23.7764869328
 10
238.725848995
 20
-24.2011131565
 10
237.6973980613
 20
-24.5302723706
 10
236.6884137032
 20
-24.7622082306
 10
235.7042795221
 20
-24.8956851094
 10
234.7502460934
 20
-24.9299882842
 10
233.8314033075
 20
-24.8649383831
 10
232.9526540284
 20
-24.7008792153
 10
232.118687093
 20
-24.4386872738
 10
231.3339516278
 20
-24.0797607071
 10
230.6026340004
 20
-23.6260158941
 10
229.9286374041
 20
-23.0798726138
 10
229.3155561748
 20
-22.4442452973
 10
228.7666632786
 20
-21.7225259162
 10
228.2848852875
 20
-20.9185642082
 10
227.8727944762
 20
-20.0366498056
 10
227.5325890663
 20
-19.0814878987
 10
227.2660826893
 20
-18.0581760403
 10
227.0747004357
 20
-16.9721718261
 10
226.9594604152
 20
-15.8292714097
 10
226.9209777083
 20
-14.6355724304
  0
LINE
  5
E4
330
1F
100
AcDbEntity
  8
0
  6
Continuous
 62
     7
370
    25
100
AcDbLine
 10
295.1369783318
 20
-9.1690213832
 30
0.0
 11
295.2227287293
 21
-9.2710691007
 31
0.0
  0
LWPOLYLINE
  5
E5
330
1F
100
AcDbEntity
  8
0
  6
Continuous
 62
     7
370
    25
100
AcDbPolyline
 90
        3
 70
   128
 43
0.0
 10
270.7938516183
 20
-51.4721730083
 10
270.786990243
 20
-51.4709598064
 10
270.7232405005
 20
-51.4594373746
  0
LINE
  5
E6
330
1F
100
AcDbEntity
  8
0
  6
Continuous
 62
     7
370
    25
100
AcDbLine
 10
306.2640472935
 20
-58.0098350026
 30
0.0
 11
306.2315148656
 21
-58.0037210603
 31
0.0
  0
LWPOLYLINE
  5
E7
330
1F
100
AcDbEntity
  8
0
  6
Continuous
 62
     7
370
    25
100
AcDbPolyline
 90
       35
 70
   128
 43
0.0
 10
346.5903982444
 20
-52.6311666197
 10
347.0821545019
 20
-52.963712234
 10
347.5878528052
 20
-53.4297420671
 10
348.0298652448
 20
-53.983889505
 10
348.4043064081
 20
-54.621284939
 10
348.7078862066
 20
-55.3363272514
 10
348.9379362181
 20
-56.1227326769
 10
349.0924353695
 20
-56.973589749
 10
349.1700264005
 20
-57.881420994
 10
349.1700264005
 20
-58.838248902
 10
349.0924353695
 20
-59.8356648445
 10
348.9379362181
 20
-60.8649028399
 10
348.7078862066
 20
-61.9169183551
 10
348.4043064081
 20
-62.9824664421
 10
348.0298652448
 20
-64.052182441
 10
347.5878528052
 20
-65.1166665788
 10
347.0821545019
 20
-66.166563245
 10
346.5172135347
 20
-67.1926457801
 10
345.8979953291
 20
-68.1858978415
 10
345.2299411091
 20
-69.1375903961
 10
344.5189217991
 20
-70.0393592832
 10
343.7711859986
 20
-70.8832808758
 10
342.9933048293
 20
-71.6619373798
 10
342.1921141479
 20
-72.3684866965
 10
341.3746551123
 20
-72.9967203072
 10
340.5481113934
 20
-73.5411154893
 10
339.7197467166
 20
-73.9968896249
 10
338.8968409005
 20
-74.360037124
 10
338.0866255252
 20
-74.6273665628
 10
337.2962206503
 20
-74.7965280898
 10
336.5325727682
 20
-74.866035557
 10
335.8023927764
 20
-74.8352779916
 10
335.1120972035
 20
-74.7045253898
 10
334.4677528908
 20
-74.4749279505
 10
334.0914144608
 20
-74.2823883008
  0
LWPOLYLINE
  5
E8
330
1F
100
AcDbEntity
  8
0
  6
Continuous
 62
     1
370
    25
100
AcDbPolyline
 90
       50
 70
   128
 43
0.0
 10
292.5388279528
 20
-6.9944935549
 10
292.5398447455
 20
-6.9950792068
 10
293.3306197224
 20
-7.5135442304
 10
294.0644819657
 20
-8.1225005187
 10
294.7382889012
 20
-8.8193393891
 10
295.3491547868
 20
-9.6010780353
 10
295.8944638838
 20
-10.4643686543
 10
296.3718809932
 20
-11.4055151773
 10
296.7793619929
 20
-12.4204861987
 10
297.1151617401
 20
-13.5049362698
 10
297.3778419734
 20
-14.6542218692
 10
297.566279216
 20
-15.8634206053
 10
297.6796647752
 20
-17.127355456
 10
297.7175139623
 20
-18.4406136862
 10
297.6796647752
 20
-19.7975716576
 10
297.566279216
 20
-21.1924186885
 10
297.3778419734
 20
-22.6191824339
 10
297.1151617401
 20
-24.0717521751
 10
296.7793619929
 20
-25.5439083817
 10
296.3718809932
 20
-27.0293469512
 10
295.8944638838
 20
-28.5217075358
 10
295.3491547868
 20
-30.0145986367
 10
294.7382889012
 20
-31.5016280219
 10
294.0644819657
 20
-32.9764278207
 10
293.3306197224
 20
-34.4326834199
 10
292.5398447455
 20
-35.8641577978
 10
291.695541954
 20
-37.2647211807
 10
290.8013274157
 20
-38.6283772777
 10
289.8610312254
 20
-39.9492860932
 10
288.8786790658
 20
-41.2217913018
 10
287.8584777191
 20
-42.4404438211
 10
286.804795311
 20
-43.6000253844
 10
285.7221448472
 20
-44.6955702122
 10
284.6151618223
 20
-45.7223870637
 10
283.4885864398
 20
-46.6760786269
 10
282.347243032
 20
-47.552562524
 10
281.1960190694
 20
-48.3480834303
 10
280.0398441692
 20
-49.0592358374
 10
278.883669269
 20
-49.6829745561
 10
277.7324453064
 20
-50.2166285448
 10
276.5911018986
 20
-50.6579116968
 10
275.4645265161
 20
-51.0049363838
 10
274.3575434912
 20
-51.2562149277
 10
273.2748930274
 20
-51.4106717184
 10
272.2212106194
 20
-51.4676459684
 10
271.2010092727
 20
-51.4268928517
 10
270.218657113
 20
-51.2885873045
 10
269.2783609227
 20
-51.0533213617
 10
268.3841463844
 20
-50.7221033946
 10
267.5408603856
 20
-50.2969369172
  0
LWPOLYLINE
  5
E9
330
1F
100
AcDbEntity
  8
0
  6
Continuous
 62
     1
370
    25
100
AcDbPolyline
 90
       43
 70
   128
 43
0.0
 10
295.2227287293
 20
-9.2710691007
 10
295.3377619668
 20
-9.4127069825
 10
295.9260187024
 20
-10.2348575472
 10
296.4465006714
 20
-11.1384883929
 10
296.8969293098
 20
-12.1196502222
 10
297.2753355695
 20
-13.1740526989
 10
297.5800665039
 20
-14.2970834604
 10
297.8097879017
 20
-15.4838328331
 10
297.9634961411
 20
-16.7291113241
 10
298.0405181897
 20
-18.0274740509
 10
298.0405181897
 20
-19.3732429859
 10
297.9634961411
 20
-20.7605334772
 10
297.8097879017
 20
-22.1832797239
 10
297.5800665039
 20
-23.6352597769
 10
297.2753355695
 20
-25.1101253862
 10
296.8969293098
 20
-26.6014264307
 10
296.4465006714
 20
-28.1026420962
 10
295.9260187024
 20
-29.6072086321
 10
295.3377619668
 20
-31.1085459667
 10
294.6843001054
 20
-32.6000900255
 10
293.9684925182
 20
-34.0753178262
 10
293.193468609
 20
-35.5277786556
 10
292.3626172475
 20
-36.9511214456
 10
291.4795709655
 20
-38.3391229089
 10
290.5481914679
 20
-39.6857133929
 10
289.5725518524
 20
-40.9850038751
 10
288.5569181704
 20
-42.2313133374
 10
287.5057316461
 20
-43.4191911986
 10
286.4235882615
 20
-44.5434458296
 10
285.3152203175
 20
-45.5991582398
 10
284.1854743725
 20
-46.5817130646
 10
283.0392908272
 20
-47.4868149125
 10
281.8816813701
 20
-48.3105044286
 10
280.7177078418
 20
-49.0491796205
 10
279.5524602356
 20
-49.6996116009
 10
278.3910337722
 20
-50.2589563007
 10
277.2385071263
 20
-50.7247670388
 10
276.0999198919
 20
-51.0950075308
 10
274.9802509949
 20
-51.3680582678
 10
273.8843963844
 20
-51.5427263528
 10
272.817147301
 20
-51.6182473999
 10
271.7831718373
 20
-51.5942900951
 10
270.7938516183
 20
-51.4721730083
  0
LWPOLYLINE
  5
EA
330
1F
100
AcDbEntity
  8
0
  6
Continuous
 62
     1
370
    25
100
AcDbPolyline
 90
       32
 70
   128
 43
0.0
 10
318.5827729573
 20
-36.6708645238
 10
318.7207393488
 20
-36.8404340782
 10
319.1204304256
 20
-37.4383357203
 10
319.4522064658
 20
-38.1144955492
 10
319.7132363866
 20
-38.8631448078
 10
319.901293649
 20
-39.6778961595
 10
320.0147733801
 20
-40.5517986326
 10
320.0527081779
 20
-41.477395988
 10
320.0147733801
 20
-42.4467919287
 10
319.901293649
 20
-43.4517153105
 10
319.7132363866
 20
-44.4835929557
 10
319.4522064658
 20
-45.5336209459
 10
319.1204304256
 20
-46.5928412371
 10
318.7207393488
 20
-47.6522163737
 10
318.2565425204
 20
-48.7027089545
 10
317.7318017441
 20
-49.7353553948
 10
317.1509924884
 20
-50.7413465323
 10
316.5190706299
 20
-51.7120985366
 10
315.8414273434
 20
-52.6393310433
 10
315.1238443203
 20
-53.5151314079
 10
314.3724433903
 20
-54.3320286572
 10
313.5936354843
 20
-55.0830526094
 10
312.794064987
 20
-55.761796418
 10
311.9805535964
 20
-56.3624687524
 10
311.1600418777
 20
-56.8799457896
 10
310.339530159
 20
-57.3098114181
 10
309.5260187684
 20
-57.6483993426
 10
308.7264482711
 20
-57.8928199801
 10
307.9476403651
 20
-58.0409884962
 10
307.1962394351
 20
-58.0916402944
 10
306.478656412
 20
-58.0443436531
 10
306.2640472935
 20
-58.0098350026
  0
LWPOLYLINE
  5
EB
330
1F
100
AcDbEntity
  8
0
  6
Continuous
 62
     1
370
    25
100
AcDbPolyline
 90
       33
 70
   128
 43
0.0
 10
318.3307288763
 20
-36.3752171049
 10
318.7934604432
 20
-36.8070931796
 10
319.2354728828
 20
-37.3612406174
 10
319.609914046
 20
-37.9986360515
 10
319.9134938446
 20
-38.7136783638
 10
320.1435438561
 20
-39.5000837893
 10
320.2980430075
 20
-40.3509408615
 10
320.3756340385
 20
-41.2587721065
 10
320.3756340385
 20
-42.2156000144
 10
320.2980430075
 20
-43.213015957
 10
320.1435438561
 20
-44.2422539523
 10
319.9134938446
 20
-45.2942694675
 10
319.609914046
 20
-46.3598175545
 10
319.2354728828
 20
-47.4295335535
 10
318.7934604432
 20
-48.4940176912
 10
318.2877621399
 20
-49.5439143574
 10
317.7228211726
 20
-50.5699968925
 10
317.103602967
 20
-51.5632489539
 10
316.4355487471
 20
-52.5149415085
 10
315.7245294371
 20
-53.4167103956
 10
314.9767936366
 20
-54.2606319882
 10
314.1989124673
 20
-55.0392884922
 10
313.3977217859
 20
-55.7458378089
 10
312.5802627502
 20
-56.3740714196
 10
311.7537190314
 20
-56.9184666018
 10
310.9253543546
 20
-57.3742407374
 10
310.1024485385
 20
-57.7373882365
 10
309.2922331631
 20
-58.0047176752
 10
308.5018282883
 20
-58.1738792023
 10
307.7381804061
 20
-58.2433866694
 10
307.0080004144
 20
-58.212629104
 10
306.3177048415
 20
-58.0818765022
 10
305.8819808434
 20
-57.9394180277
  0
ENDSEC
  0
SECTION
  2
OBJECTS
  0
DICTIONARY
  5
C
330
0
100
AcDbDictionary
281
     1
  3
ACAD_GROUP
350
D
  3
ACAD_LAYOUT
350
1A
  3
ACAD_MLINESTYLE
350
17
  3
ACAD_PLOTSETTINGS
350
19
  3
ACAD_PLOTSTYLENAME
350
E
  3
ACAD_SCALELIST
350
47
  0
DICTIONARY
  5
D
102
{ACAD_REACTORS
330
C
102
}
330
C
100
AcDbDictionary
281
     1
  0
DICTIONARY
  5
1A
102
{ACAD_REACTORS
330
C
102
}
330
C
100
AcDbDictionary
281
     1
  3
Layout1
350
1E
  3
Layout2
350
26
  3
Model
350
22
  0
DICTIONARY
  5
17
102
{ACAD_REACTORS
330
C
102
}
330
C
100
AcDbDictionary
281
     1
  3
Standard
350
18
  0
DICTIONARY
  5
19
102
{ACAD_REACTORS
330
C
102
}
330
C
100
AcDbDictionary
281
     1
  0
ACDBDICTIONARYWDFLT
  5
E
102
{ACAD_REACTORS
330
C
102
}
330
C
100
AcDbDictionary
281
     1
  3
Normal
350
F
100
AcDbDictionaryWithDefault
340
F
  0
DICTIONARY
  5
47
102
{ACAD_REACTORS
330
C
102
}
330
C
100
AcDbDictionary
281
     1
  3
A0
350
48
  3
A1
350
49
  3
A2
350
4A
  3
A3
350
4B
  3
A4
350
4C
  3
A5
350
4D
  3
A6
350
4E
  3
A7
350
4F
  3
A8
350
50
  3
A9
350
51
  3
B0
350
52
  3
B1
350
53
  3
B2
350
54
  3
B3
350
55
  3
B4
350
56
  3
B5
350
57
  3
B6
350
58
  3
B7
350
59
  3
B8
350
5A
  3
B9
350
5B
  3
C0
350
5C
  3
C1
350
5D
  3
C2
350
5E
  3
C3
350
5F
  3
C4
350
60
  3
C5
350
61
  3
C6
350
62
  3
C7
350
63
  3
C8
350
64
  3
C9
350
65
  3
D0
350
66
  3
D1
350
67
  3
D2
350
68
  0
LAYOUT
  5
1E
102
{ACAD_REACTORS
330
1A
102
}
330
1A
100
AcDbPlotSettings
  1

  2
none_device
  4

  6

 40
0.0
 41
0.0
 42
0.0
 43
0.0
 44
0.0
 45
0.0
 46
0.0
 47
0.0
 48
0.0
 49
0.0
140
0.0
141
0.0
142
1.0
143
1.0
 70
   688
 72
     1
 73
     0
 74
     5
  7

 75
    16
147
1.0
148
0.0
149
0.0
100
AcDbLayout
  1
Layout1
 70
     1
 71
     1
 10
0.0
 20
0.0
 11
420.0
 21
297.0
 12
0.0
 22
0.0
 32
0.0
 14
1.0000000000E+20
 24
1.0000000000E+20
 34
1.0000000000E+20
 15
-1.0000000000E+20
 25
-1.0000000000E+20
 35
-1.0000000000E+20
146
0.0
 13
0.0
 23
0.0
 33
0.0
 16
1.0
 26
0.0
 36
0.0
 17
0.0
 27
1.0
 37
0.0
 76
     0
330
1B
  0
LAYOUT
  5
26
102
{ACAD_REACTORS
330
1A
102
}
330
1A
100
AcDbPlotSettings
  1

  2
none_device
  4

  6

 40
0.0
 41
0.0
 42
0.0
 43
0.0
 44
0.0
 45
0.0
 46
0.0
 47
0.0
 48
0.0
 49
0.0
140
0.0
141
0.0
142
1.0
143
1.0
 70
   688
 72
     1
 73
     0
 74
     5
  7

 75
    16
147
1.0
148
0.0
149
0.0
100
AcDbLayout
  1
Layout2
 70
     1
 71
     2
 10
0.0
 20
0.0
 11
0.0
 21
0.0
 12
0.0
 22
0.0
 32
0.0
 14
0.0
 24
0.0
 34
0.0
 15
0.0
 25
0.0
 35
0.0
146
0.0
 13
0.0
 23
0.0
 33
0.0
 16
1.0
 26
0.0
 36
0.0
 17
0.0
 27
1.0
 37
0.0
 76
     0
330
23
  0
LAYOUT
  5
22
102
{ACAD_REACTORS
330
1A
102
}
330
1A
100
AcDbPlotSettings
  1

  2
none_device
  4
Letter_(8.50_x_11.00_Inches)
  6

 40
6.35
 41
6.35
 42
6.35000508
 43
6.35000508
 44
215.9
 45
279.4
 46
0.0
 47
0.0
 48
0.0
 49
0.0
140
0.0
141
0.0
142
1.0
143
1.0
 70
  1712
 72
     1
 73
     0
 74
     0
  7

 75
     0
147
1.0
148
0.0
149
0.0
100
AcDbLayout
  1
Model
 70
     1
 71
     0
 10
0.0
 20
0.0
 11
279.4
 21
215.9
 12
0.0
 22
0.0
 32
0.0
 14
0.0
 24
0.0
 34
0.0
 15
279.4
 25
215.9
 35
0.0
146
0.0
 13
0.0
 23
0.0
 33
0.0
 16
1.0
 26
0.0
 36
0.0
 17
0.0
 27
1.0
 37
0.0
 76
     0
330
1F
331
29
  0
MLINESTYLE
  5
18
102
{ACAD_REACTORS
330
17
102
}
330
17
100
AcDbMlineStyle
  2
Standard
 70
     0
  3

 62
   256
 51
90.0
 52
90.0
 71
     2
 49
0.5
 62
   256
  6
BYLAYER
 49
-0.5
 62
   256
  6
BYLAYER
  0
ACDBPLACEHOLDER
  5
F
102
{ACAD_REACTORS
330
E
102
}
330
E
  0
SCALE
  5
48
102
{ACAD_REACTORS
330
47
102
}
330
47
100
AcDbScale
 70
     0
300
1:1
140
1.0
141
1.0
290
     1
  0
SCALE
  5
49
102
{ACAD_REACTORS
330
47
102
}
330
47
100
AcDbScale
 70
     0
300
1:2
140
1.0
141
2.0
290
     0
  0
SCALE
  5
4A
102
{ACAD_REACTORS
330
47
102
}
330
47
100
AcDbScale
 70
     0
300
1:4
140
1.0
141
4.0
290
     0
  0
SCALE
  5
4B
102
{ACAD_REACTORS
330
47
102
}
330
47
100
AcDbScale
 70
     0
300
1:5
140
1.0
141
5.0
290
     0
  0
SCALE
  5
4C
102
{ACAD_REACTORS
330
47
102
}
330
47
100
AcDbScale
 70
     0
300
1:8
140
1.0
141
8.0
290
     0
  0
SCALE
  5
4D
102
{ACAD_REACTORS
330
47
102
}
330
47
100
AcDbScale
 70
     0
300
1:10
140
1.0
141
10.0
290
     0
  0
SCALE
  5
4E
102
{ACAD_REACTORS
330
47
102
}
330
47
100
AcDbScale
 70
     0
300
1:16
140
1.0
141
16.0
290
     0
  0
SCALE
  5
4F
102
{ACAD_REACTORS
330
47
102
}
330
47
100
AcDbScale
 70
     0
300
1:20
140
1.0
141
20.0
290
     0
  0
SCALE
  5
50
102
{ACAD_REACTORS
330
47
102
}
330
47
100
AcDbScale
 70
     0
300
1:30
140
1.0
141
30.0
290
     0
  0
SCALE
  5
51
102
{ACAD_REACTORS
330
47
102
}
330
47
100
AcDbScale
 70
     0
300
1:40
140
1.0
141
40.0
290
     0
  0
SCALE
  5
52
102
{ACAD_REACTORS
330
47
102
}
330
47
100
AcDbScale
 70
     0
300
1:50
140
1.0
141
50.0
290
     0
  0
SCALE
  5
53
102
{ACAD_REACTORS
330
47
102
}
330
47
100
AcDbScale
 70
     0
300
1:100
140
1.0
141
100.0
290
     0
  0
SCALE
  5
54
102
{ACAD_REACTORS
330
47
102
}
330
47
100
AcDbScale
 70
     0
300
2:1
140
2.0
141
1.0
290
     0
  0
SCALE
  5
55
102
{ACAD_REACTORS
330
47
102
}
330
47
100
AcDbScale
 70
     0
300
4:1
140
4.0
141
1.0
290
     0
  0
SCALE
  5
56
102
{ACAD_REACTORS
330
47
102
}
330
47
100
AcDbScale
 70
     0
300
8:1
140
8.0
141
1.0
290
     0
  0
SCALE
  5
57
102
{ACAD_REACTORS
330
47
102
}
330
47
100
AcDbScale
 70
     0
300
10:1
140
10.0
141
1.0
290
     0
  0
SCALE
  5
58
102
{ACAD_REACTORS
330
47
102
}
330
47
100
AcDbScale
 70
     0
300
100:1
140
100.0
141
1.0
290
     0
  0
SCALE
  5
59
102
{ACAD_REACTORS
330
47
102
}
330
47
100
AcDbScale
 70
     0
300
1/128" = 1'-0"
140
0.0078125
141
12.0
290
     0
  0
SCALE
  5
5A
102
{ACAD_REACTORS
330
47
102
}
330
47
100
AcDbScale
 70
     0
300
1/64" = 1'-0"
140
0.015625
141
12.0
290
     0
  0
SCALE
  5
5B
102
{ACAD_REACTORS
330
47
102
}
330
47
100
AcDbScale
 70
     0
300
1/32" = 1'-0"
140
0.03125
141
12.0
290
     0
  0
SCALE
  5
5C
102
{ACAD_REACTORS
330
47
102
}
330
47
100
AcDbScale
 70
     0
300
1/16" = 1'-0"
140
0.0625
141
12.0
290
     0
  0
SCALE
  5
5D
102
{ACAD_REACTORS
330
47
102
}
330
47
100
AcDbScale
 70
     0
300
3/32" = 1'-0"
140
0.09375
141
12.0
290
     0
  0
SCALE
  5
5E
102
{ACAD_REACTORS
330
47
102
}
330
47
100
AcDbScale
 70
     0
300
1/8" = 1'-0"
140
0.125
141
12.0
290
     0
  0
SCALE
  5
5F
102
{ACAD_REACTORS
330
47
102
}
330
47
100
AcDbScale
 70
     0
300
3/16" = 1'-0"
140
0.1875
141
12.0
290
     0
  0
SCALE
  5
60
102
{ACAD_REACTORS
330
47
102
}
330
47
100
AcDbScale
 70
     0
300
1/4" = 1'-0"
140
0.25
141
12.0
290
     0
  0
SCALE
  5
61
102
{ACAD_REACTORS
330
47
102
}
330
47
100
AcDbScale
 70
     0
300
3/8" = 1'-0"
140
0.375
141
12.0
290
     0
  0
SCALE
  5
62
102
{ACAD_REACTORS
330
47
102
}
330
47
100
AcDbScale
 70
     0
300
1/2" = 1'-0"
140
0.5
141
12.0
290
     0
  0
SCALE
  5
63
102
{ACAD_REACTORS
330
47
102
}
330
47
100
AcDbScale
 70
     0
300
3/4" = 1'-0"
140
0.75
141
12.0
290
     0
  0
SCALE
  5
64
102
{ACAD_REACTORS
330
47
102
}
330
47
100
AcDbScale
 70
     0
300
1" = 1'-0"
140
1.0
141
12.0
290
     0
  0
SCALE
  5
65
102
{ACAD_REACTORS
330
47
102
}
330
47
100
AcDbScale
 70
     0
300
1-1/2" = 1'-0"
140
1.5
141
12.0
290
     0
  0
SCALE
  5
66
102
{ACAD_REACTORS
330
47
102
}
330
47
100
AcDbScale
 70
     0
300
3" = 1'-0"
140
3.0
141
12.0
290
     0
  0
SCALE
  5
67
102
{ACAD_REACTORS
330
47
102
}
330
47
100
AcDbScale
 70
     0
300
6" = 1'-0"
140
6.0
141
12.0
290
     0
  0
SCALE
  5
68
102
{ACAD_REACTORS
330
47
102
}
330
47
100
AcDbScale
 70
     0
300
1'-0" = 1'-0"
140
12.0
141
12.0
290
     0
  0
ENDSEC
  0
EOF
